ISO-10303-21;
HEADER;
FILE_DESCRIPTION (( 'STEP AP214' ),
    '1' );
FILE_NAME ('BS1ISOK160154 FULLVAC.STEP',
    '2024-05-22T12:44:22',
    ( '' ),
    ( '' ),
    'SwSTEP 2.0',
    'SolidWorks 2017',
    '' );
FILE_SCHEMA (( 'AUTOMOTIVE_DESIGN' ));
ENDSEC;

DATA;
#1 = VERTEX_POINT ( 'NONE', #275 ) ;
#2 = EDGE_CURVE ( 'NONE', #165, #165, #331, .T. ) ;
#3 = ORIENTED_EDGE ( 'NONE', *, *, #197, .T. ) ;
#4 = PRESENTATION_STYLE_ASSIGNMENT (( #20 ) ) ;
#5 = FACE_OUTER_BOUND ( 'NONE', #272, .T. ) ;
#6 = EDGE_LOOP ( 'NONE', ( #177 ) ) ;
#7 = ADVANCED_FACE ( 'NONE', ( #194, #193 ), #320, .T. ) ;
#8 = DIRECTION ( 'NONE',  ( 0.0000000000000000000, -1.000000000000000000, -0.0000000000000000000 ) ) ;
#9 = PLANE ( 'NONE',  #236 ) ;
#10 = PRODUCT_DEFINITION_CONTEXT ( 'detailed design', #171, 'design' ) ;
#11 = DIRECTION ( 'NONE',  ( 0.0000000000000000000, 0.0000000000000000000, -1.000000000000000000 ) ) ;
#12 = DIRECTION ( 'NONE',  ( 0.0000000000000000000, -0.0000000000000000000, 1.000000000000000000 ) ) ;
#13 = FACE_OUTER_BOUND ( 'NONE', #349, .T. ) ;
#14 = DIRECTION ( 'NONE',  ( 0.0000000000000000000, 1.000000000000000000, 0.0000000000000000000 ) ) ;
#15 = DIRECTION ( 'NONE',  ( 0.0000000000000000000, 1.000000000000000000, 0.0000000000000000000 ) ) ;
#16 = CIRCLE ( 'NONE', #257, 77.07500000000000300 ) ;
#17 = FACE_OUTER_BOUND ( 'NONE', #256, .T. ) ;
#18 = DIRECTION ( 'NONE',  ( 0.0000000000000000000, 0.0000000000000000000, -1.000000000000000000 ) ) ;
#19 = FILL_AREA_STYLE ('',( #279 ) ) ;
#20 = SURFACE_STYLE_USAGE ( .BOTH. , #364 ) ;
#21 =( GEOMETRIC_REPRESENTATION_CONTEXT ( 3 ) GLOBAL_UNCERTAINTY_ASSIGNED_CONTEXT ( ( #297 ) ) GLOBAL_UNIT_ASSIGNED_CONTEXT ( ( #89, #119, #142 ) ) REPRESENTATION_CONTEXT ( 'NONE', 'WORKASPACE' ) );
#22 = DIRECTION ( 'NONE',  ( 0.0000000000000000000, 1.000000000000000000, 0.0000000000000000000 ) ) ;
#23 = FACE_OUTER_BOUND ( 'NONE', #136, .T. ) ;
#24 = DIRECTION ( 'NONE',  ( 0.0000000000000000000, 0.0000000000000000000, -1.000000000000000000 ) ) ;
#25 = CARTESIAN_POINT ( 'NONE',  ( 0.0000000000000000000, -6.600000000000000500, -75.90000000000000600 ) ) ;
#26 = CIRCLE ( 'NONE', #296, 90.00000000000000000 ) ;
#27 =( NAMED_UNIT ( * ) SI_UNIT ( $, .STERADIAN. ) SOLID_ANGLE_UNIT ( ) );
#28 = EDGE_LOOP ( 'NONE', ( #68 ) ) ;
#29 = APPLICATION_CONTEXT ( 'automotive_design' ) ;
#30 = PRODUCT_CONTEXT ( 'NONE', #29, 'mechanical' ) ;
#31 = ORIENTED_EDGE ( 'NONE', *, *, #365, .T. ) ;
#32 = AXIS2_PLACEMENT_3D ( 'NONE', #216, #255, #60 ) ;
#33 = AXIS2_PLACEMENT_3D ( 'NONE', #329, #134, #303 ) ;
#34 = FACE_OUTER_BOUND ( 'NONE', #321, .T. ) ;
#35 = ADVANCED_FACE ( 'NONE', ( #285, #183 ), #9, .T. ) ;
#36 = FACE_OUTER_BOUND ( 'NONE', #169, .T. ) ;
#37 = ORIENTED_EDGE ( 'NONE', *, *, #287, .T. ) ;
#38 = ADVANCED_FACE ( 'NONE', ( #172, #5 ), #85, .T. ) ;
#39 = PRODUCT_DEFINITION_FORMATION_WITH_SPECIFIED_SOURCE ( 'ANY', '', #262, .NOT_KNOWN. ) ;
#40 = DIRECTION ( 'NONE',  ( 0.0000000000000000000, 0.0000000000000000000, 1.000000000000000000 ) ) ;
#41 = ADVANCED_FACE ( 'NONE', ( #51, #345 ), #352, .T. ) ;
#42 = CIRCLE ( 'NONE', #346, 75.90000000000000600 ) ;
#43 = CARTESIAN_POINT ( 'NONE',  ( 0.0000000000000000000, -4.500000000000000000, 0.0000000000000000000 ) ) ;
#44 = DIRECTION ( 'NONE',  ( 0.0000000000000000000, 0.0000000000000000000, 1.000000000000000000 ) ) ;
#45 = ORIENTED_EDGE ( 'NONE', *, *, #265, .T. ) ;
#46 = UNCERTAINTY_MEASURE_WITH_UNIT (LENGTH_MEASURE( 1.000000000000000100E-005 ), #88, 'distance_accuracy_value', 'NONE');
#47 = DIRECTION ( 'NONE',  ( 0.0000000000000000000, 0.0000000000000000000, 1.000000000000000000 ) ) ;
#48 = PRODUCT_DEFINITION_SHAPE ( 'NONE', 'NONE',  #62 ) ;
#49 = EDGE_CURVE ( 'NONE', #84, #84, #337, .T. ) ;
#50 = CARTESIAN_POINT ( 'NONE',  ( 0.0000000000000000000, -3.311805698386588200, 0.0000000000000000000 ) ) ;
#51 = FACE_BOUND ( 'NONE', #361, .T. ) ;
#52 = DIRECTION ( 'NONE',  ( 0.0000000000000000000, 0.0000000000000000000, -1.000000000000000000 ) ) ;
#53 = DIRECTION ( 'NONE',  ( 0.0000000000000000000, 0.0000000000000000000, 1.000000000000000000 ) ) ;
#54 = DIRECTION ( 'NONE',  ( 0.0000000000000000000, 0.0000000000000000000, 1.000000000000000000 ) ) ;
#55 = PRESENTATION_LAYER_ASSIGNMENT (  '', '', ( #223 ) ) ;
#56 = CARTESIAN_POINT ( 'NONE',  ( 0.0000000000000000000, -12.00000000000000200, 0.0000000000000000000 ) ) ;
#57 = VERTEX_POINT ( 'NONE', #251 ) ;
#58 = ORIENTED_EDGE ( 'NONE', *, *, #287, .F. ) ;
#59 = CARTESIAN_POINT ( 'NONE',  ( 0.0000000000000000000, -12.00000000000000200, 81.15000000000000600 ) ) ;
#60 = DIRECTION ( 'NONE',  ( 1.000000000000000000, 0.0000000000000000000, 0.0000000000000000000 ) ) ;
#61 = FACE_OUTER_BOUND ( 'NONE', #358, .T. ) ;
#62 = PRODUCT_DEFINITION ( 'UNKNOWN', '', #39, #10 ) ;
#63 = AXIS2_PLACEMENT_3D ( 'NONE', #350, #175, #150 ) ;
#64 = SURFACE_STYLE_USAGE ( .BOTH. , #315 ) ;
#65 = AXIS2_PLACEMENT_3D ( 'NONE', #367, #166, #24 ) ;
#66 = EDGE_CURVE ( 'NONE', #1, #1, #341, .T. ) ;
#67 = SURFACE_STYLE_FILL_AREA ( #19 ) ;
#68 = ORIENTED_EDGE ( 'NONE', *, *, #155, .T. ) ;
#69 = CARTESIAN_POINT ( 'NONE',  ( 0.0000000000000000000, -11.99999999999999800, 0.0000000000000000000 ) ) ;
#70 = FACE_OUTER_BOUND ( 'NONE', #232, .T. ) ;
#71 = DIRECTION ( 'NONE',  ( 0.0000000000000000000, 1.000000000000000000, 0.0000000000000000000 ) ) ;
#72 = EDGE_LOOP ( 'NONE', ( #184 ) ) ;
#73 = DIRECTION ( 'NONE',  ( 0.0000000000000000000, 1.000000000000000000, 0.0000000000000000000 ) ) ;
#74 =( GEOMETRIC_REPRESENTATION_CONTEXT ( 3 ) GLOBAL_UNCERTAINTY_ASSIGNED_CONTEXT ( ( #234 ) ) GLOBAL_UNIT_ASSIGNED_CONTEXT ( ( #219, #218, #247 ) ) REPRESENTATION_CONTEXT ( 'NONE', 'WORKASPACE' ) );
#75 = VERTEX_POINT ( 'NONE', #344 ) ;
#76 = CLOSED_SHELL ( 'NONE', ( #35, #96, #154, #242, #125, #158, #332, #38, #201, #146, #78, #41, #292, #7, #264, #363 ) ) ;
#77 = PLANE ( 'NONE',  #92 ) ;
#78 = ADVANCED_FACE ( 'NONE', ( #104, #36 ), #206, .T. ) ;
#79 = PLANE ( 'NONE',  #139 ) ;
#80 = FACE_OUTER_BOUND ( 'NONE', #210, .T. ) ;
#81 = EDGE_LOOP ( 'NONE', ( #31 ) ) ;
#82 = DIRECTION ( 'NONE',  ( 0.0000000000000000000, 1.000000000000000000, 0.0000000000000000000 ) ) ;
#83 = DIRECTION ( 'NONE',  ( 0.0000000000000000000, 0.0000000000000000000, 1.000000000000000000 ) ) ;
#84 = VERTEX_POINT ( 'NONE', #310 ) ;
#85 = CYLINDRICAL_SURFACE ( 'NONE', #63, 90.00000000000000000 ) ;
#86 = ORIENTED_EDGE ( 'NONE', *, *, #97, .F. ) ;
#87 = AXIS2_PLACEMENT_3D ( 'NONE', #69, #71, #129 ) ;
#88 =( LENGTH_UNIT ( ) NAMED_UNIT ( * ) SI_UNIT ( .MILLI., .METRE. ) );
#89 =( LENGTH_UNIT ( ) NAMED_UNIT ( * ) SI_UNIT ( .MILLI., .METRE. ) );
#90 = APPLICATION_PROTOCOL_DEFINITION ( 'draft international standard', 'automotive_design', 1998, #29 ) ;
#91 = CIRCLE ( 'NONE', #217, 75.90000000000000600 ) ;
#92 = AXIS2_PLACEMENT_3D ( 'NONE', #269, #15, #12 ) ;
#93 = DIRECTION ( 'NONE',  ( 0.0000000000000000000, 1.000000000000000000, 0.0000000000000000000 ) ) ;
#94 = FACE_OUTER_BOUND ( 'NONE', #95, .T. ) ;
#95 = EDGE_LOOP ( 'NONE', ( #199 ) ) ;
#96 = ADVANCED_FACE ( 'NONE', ( #115, #157 ), #312, .F. ) ;
#97 = EDGE_CURVE ( 'NONE', #299, #299, #225, .T. ) ;
#98 = PRESENTATION_STYLE_ASSIGNMENT (( #64 ) ) ;
#99 = CARTESIAN_POINT ( 'NONE',  ( 73.70000000000000300, -4.500000000000000000, 0.0000000000000000000 ) ) ;
#100 = EDGE_LOOP ( 'NONE', ( #86 ) ) ;
#101 = CARTESIAN_POINT ( 'NONE',  ( 0.0000000000000000000, -6.599999999999994300, 0.0000000000000000000 ) ) ;
#102 = CARTESIAN_POINT ( 'NONE',  ( 90.00000000000000000, -12.00000000000000200, 0.0000000000000000000 ) ) ;
#103 = COLOUR_RGB ( '',0.7921568627450980000, 0.8196078431372548800, 0.9333333333333333500 ) ;
#104 = FACE_BOUND ( 'NONE', #148, .T. ) ;
#105 = EDGE_LOOP ( 'NONE', ( #132 ) ) ;
#106 = CARTESIAN_POINT ( 'NONE',  ( 0.0000000000000000000, -6.600000000000000500, 0.0000000000000000000 ) ) ;
#107 = CARTESIAN_POINT ( 'NONE',  ( 0.0000000000000000000, -3.510416792694058600, 0.0000000000000000000 ) ) ;
#108 = AXIS2_PLACEMENT_3D ( 'NONE', #327, #240, #47 ) ;
#109 = DIRECTION ( 'NONE',  ( 0.0000000000000000000, 0.0000000000000000000, -1.000000000000000000 ) ) ;
#110 = EDGE_LOOP ( 'NONE', ( #226 ) ) ;
#111 = DIRECTION ( 'NONE',  ( 0.0000000000000000000, 0.0000000000000000000, 1.000000000000000000 ) ) ;
#112 = AXIS2_PLACEMENT_3D ( 'NONE', #335, #162, #362 ) ;
#113 = VERTEX_POINT ( 'NONE', #118 ) ;
#114 = PRESENTATION_LAYER_ASSIGNMENT (  '', '', ( #209 ) ) ;
#115 = FACE_OUTER_BOUND ( 'NONE', #140, .T. ) ;
#116 = EDGE_LOOP ( 'NONE', ( #138 ) ) ;
#117 = CARTESIAN_POINT ( 'NONE',  ( 0.0000000000000000000, -12.00000000000000200, 90.00000000000000000 ) ) ;
#118 = CARTESIAN_POINT ( 'NONE',  ( 0.0000000000000000000, -3.311805698386587300, 90.00000000000001400 ) ) ;
#119 =( NAMED_UNIT ( * ) PLANE_ANGLE_UNIT ( ) SI_UNIT ( $, .RADIAN. ) );
#120 = EDGE_LOOP ( 'NONE', ( #348 ) ) ;
#121 = AXIS2_PLACEMENT_3D ( 'NONE', #355, #202, #200 ) ;
#122 = VERTEX_POINT ( 'NONE', #222 ) ;
#123 = ORIENTED_EDGE ( 'NONE', *, *, #2, .T. ) ;
#124 = CARTESIAN_POINT ( 'NONE',  ( 0.0000000000000000000, -6.688194301613415300, 0.0000000000000000000 ) ) ;
#125 = ADVANCED_FACE ( 'NONE', ( #80, #61 ), #277, .T. ) ;
#126 = AXIS2_PLACEMENT_3D ( 'NONE', #156, #73, #334 ) ;
#127 = FACE_OUTER_BOUND ( 'NONE', #173, .T. ) ;
#128 = CARTESIAN_POINT ( 'NONE',  ( 0.0000000000000000000, -11.99999999999999800, 0.0000000000000000000 ) ) ;
#129 = DIRECTION ( 'NONE',  ( 0.0000000000000000000, 0.0000000000000000000, 1.000000000000000000 ) ) ;
#130 = DIRECTION ( 'NONE',  ( 0.0000000000000000000, 1.000000000000000000, 0.0000000000000000000 ) ) ;
#131 = VERTEX_POINT ( 'NONE', #228 ) ;
#132 = ORIENTED_EDGE ( 'NONE', *, *, #151, .F. ) ;
#133 = MECHANICAL_DESIGN_GEOMETRIC_PRESENTATION_REPRESENTATION (  '', ( #209 ), #180 ) ;
#134 = DIRECTION ( 'NONE',  ( 0.0000000000000000000, 1.000000000000000000, 0.0000000000000000000 ) ) ;
#135 = FACE_OUTER_BOUND ( 'NONE', #342, .T. ) ;
#136 = EDGE_LOOP ( 'NONE', ( #215 ) ) ;
#137 = CARTESIAN_POINT ( 'NONE',  ( 0.0000000000000000000, -3.311805698386587300, 0.0000000000000000000 ) ) ;
#138 = ORIENTED_EDGE ( 'NONE', *, *, #229, .F. ) ;
#139 = AXIS2_PLACEMENT_3D ( 'NONE', #102, #298, #18 ) ;
#140 = EDGE_LOOP ( 'NONE', ( #368 ) ) ;
#141 = ORIENTED_EDGE ( 'NONE', *, *, #324, .T. ) ;
#142 =( NAMED_UNIT ( * ) SI_UNIT ( $, .STERADIAN. ) SOLID_ANGLE_UNIT ( ) );
#143 = CARTESIAN_POINT ( 'NONE',  ( 0.0000000000000000000, -4.500000000000000000, 77.07500000000000300 ) ) ;
#144 = COLOUR_RGB ( '',0.7921568627450980000, 0.8196078431372548800, 0.9333333333333333500 ) ;
#145 = FACE_OUTER_BOUND ( 'NONE', #110, .T. ) ;
#146 = ADVANCED_FACE ( 'NONE', ( #127, #94 ), #370, .F. ) ;
#147 = DIRECTION ( 'NONE',  ( 0.0000000000000000000, 0.0000000000000000000, -1.000000000000000000 ) ) ;
#148 = EDGE_LOOP ( 'NONE', ( #306 ) ) ;
#149 = EDGE_LOOP ( 'NONE', ( #45 ) ) ;
#150 = DIRECTION ( 'NONE',  ( 0.0000000000000000000, 0.0000000000000000000, 1.000000000000000000 ) ) ;
#151 = EDGE_CURVE ( 'NONE', #366, #366, #187, .T. ) ;
#152 = CYLINDRICAL_SURFACE ( 'NONE', #288, 90.00000000000000000 ) ;
#153 = DIRECTION ( 'NONE',  ( 0.0000000000000000000, 0.0000000000000000000, 1.000000000000000000 ) ) ;
#154 = ADVANCED_FACE ( 'NONE', ( #214, #231 ), #79, .T. ) ;
#155 = EDGE_CURVE ( 'NONE', #75, #75, #244, .T. ) ;
#156 = CARTESIAN_POINT ( 'NONE',  ( 0.0000000000000000000, -11.99999999999999800, 0.0000000000000000000 ) ) ;
#157 = FACE_OUTER_BOUND ( 'NONE', #196, .T. ) ;
#158 = ADVANCED_FACE ( 'NONE', ( #17, #23 ), #294, .F. ) ;
#159 = EDGE_LOOP ( 'NONE', ( #353 ) ) ;
#160 = DIRECTION ( 'NONE',  ( 0.0000000000000000000, 1.000000000000000000, 0.0000000000000000000 ) ) ;
#161 = AXIS2_PLACEMENT_3D ( 'NONE', #99, #359, #333 ) ;
#162 = DIRECTION ( 'NONE',  ( 0.0000000000000000000, 1.000000000000000000, 0.0000000000000000000 ) ) ;
#163 = ADVANCED_BREP_SHAPE_REPRESENTATION ( 'BS1ISOK160154 FULLVAC', ( #252, #32 ), #21 ) ;
#164 = DIRECTION ( 'NONE',  ( 0.0000000000000000000, 0.0000000000000000000, 1.000000000000000000 ) ) ;
#165 = VERTEX_POINT ( 'NONE', #248 ) ;
#166 = DIRECTION ( 'NONE',  ( -0.0000000000000000000, -1.000000000000000000, -0.0000000000000000000 ) ) ;
#167 = AXIS2_PLACEMENT_3D ( 'NONE', #50, #188, #111 ) ;
#168 = DIRECTION ( 'NONE',  ( -0.0000000000000000000, -1.000000000000000000, -0.0000000000000000000 ) ) ;
#169 = EDGE_LOOP ( 'NONE', ( #259 ) ) ;
#170 = ORIENTED_EDGE ( 'NONE', *, *, #365, .F. ) ;
#171 = APPLICATION_CONTEXT ( 'automotive_design' ) ;
#172 = FACE_OUTER_BOUND ( 'NONE', #149, .T. ) ;
#173 = EDGE_LOOP ( 'NONE', ( #266 ) ) ;
#174 = DIRECTION ( 'NONE',  ( 0.0000000000000000000, -1.000000000000000000, -0.0000000000000000000 ) ) ;
#175 = DIRECTION ( 'NONE',  ( 0.0000000000000000000, 1.000000000000000000, 0.0000000000000000000 ) ) ;
#176 = AXIS2_PLACEMENT_3D ( 'NONE', #301, #179, #207 ) ;
#177 = ORIENTED_EDGE ( 'NONE', *, *, #267, .T. ) ;
#178 = CARTESIAN_POINT ( 'NONE',  ( 87.50000000000000000, -9.983193277310919100, 0.0000000000000000000 ) ) ;
#179 = DIRECTION ( 'NONE',  ( 0.0000000000000000000, 1.000000000000000000, 0.0000000000000000000 ) ) ;
#180 =( GEOMETRIC_REPRESENTATION_CONTEXT ( 3 ) GLOBAL_UNCERTAINTY_ASSIGNED_CONTEXT ( ( #46 ) ) GLOBAL_UNIT_ASSIGNED_CONTEXT ( ( #88, #311, #27 ) ) REPRESENTATION_CONTEXT ( 'NONE', 'WORKASPACE' ) );
#181 = EDGE_CURVE ( 'NONE', #258, #258, #42, .T. ) ;
#182 = VERTEX_POINT ( 'NONE', #143 ) ;
#183 = FACE_OUTER_BOUND ( 'NONE', #159, .T. ) ;
#184 = ORIENTED_EDGE ( 'NONE', *, *, #2, .F. ) ;
#185 = DIRECTION ( 'NONE',  ( 0.0000000000000000000, 1.000000000000000000, 0.0000000000000000000 ) ) ;
#186 = CARTESIAN_POINT ( 'NONE',  ( 0.0000000000000000000, 211.4010206398126000, 0.0000000000000000000 ) ) ;
#187 = CIRCLE ( 'NONE', #343, 77.07500000000000300 ) ;
#188 = DIRECTION ( 'NONE',  ( 0.0000000000000000000, 1.000000000000000000, 0.0000000000000000000 ) ) ;
#189 = MECHANICAL_DESIGN_GEOMETRIC_PRESENTATION_REPRESENTATION (  '', ( #223 ), #74 ) ;
#190 = CARTESIAN_POINT ( 'NONE',  ( 81.15000000000000600, -12.00000000000000200, 0.0000000000000000000 ) ) ;
#191 = DIRECTION ( 'NONE',  ( 0.0000000000000000000, 0.0000000000000000000, 1.000000000000000000 ) ) ;
#192 = VERTEX_POINT ( 'NONE', #59 ) ;
#193 = FACE_OUTER_BOUND ( 'NONE', #120, .T. ) ;
#194 = FACE_OUTER_BOUND ( 'NONE', #81, .T. ) ;
#195 = EDGE_CURVE ( 'NONE', #182, #182, #230, .T. ) ;
#196 = EDGE_LOOP ( 'NONE', ( #58 ) ) ;
#197 = EDGE_CURVE ( 'NONE', #57, #57, #91, .T. ) ;
#198 = ORIENTED_EDGE ( 'NONE', *, *, #151, .T. ) ;
#199 = ORIENTED_EDGE ( 'NONE', *, *, #195, .F. ) ;
#200 = DIRECTION ( 'NONE',  ( 0.0000000000000000000, 0.0000000000000000000, 1.000000000000000000 ) ) ;
#201 = ADVANCED_FACE ( 'NONE', ( #135, #224 ), #77, .T. ) ;
#202 = DIRECTION ( 'NONE',  ( 0.0000000000000000000, 1.000000000000000000, 0.0000000000000000000 ) ) ;
#203 = CIRCLE ( 'NONE', #112, 81.15000000000000600 ) ;
#204 = ORIENTED_EDGE ( 'NONE', *, *, #340, .T. ) ;
#205 = ORIENTED_EDGE ( 'NONE', *, *, #265, .F. ) ;
#206 = PLANE ( 'NONE',  #161 ) ;
#207 = DIRECTION ( 'NONE',  ( 0.0000000000000000000, 0.0000000000000000000, 1.000000000000000000 ) ) ;
#208 = VERTEX_POINT ( 'NONE', #254 ) ;
#209 = STYLED_ITEM ( 'NONE', ( #98 ), #163 ) ;
#210 = EDGE_LOOP ( 'NONE', ( #123 ) ) ;
#211 = DIRECTION ( 'NONE',  ( 0.0000000000000000000, 0.0000000000000000000, 1.000000000000000000 ) ) ;
#212 = DIRECTION ( 'NONE',  ( 0.0000000000000000000, 1.000000000000000000, 0.0000000000000000000 ) ) ;
#213 = FACE_OUTER_BOUND ( 'NONE', #300, .T. ) ;
#214 = FACE_BOUND ( 'NONE', #250, .T. ) ;
#215 = ORIENTED_EDGE ( 'NONE', *, *, #155, .F. ) ;
#216 = CARTESIAN_POINT ( 'NONE',  ( 0.0000000000000000000, 0.0000000000000000000, 0.0000000000000000000 ) ) ;
#217 = AXIS2_PLACEMENT_3D ( 'NONE', #43, #130, #237 ) ;
#218 =( NAMED_UNIT ( * ) PLANE_ANGLE_UNIT ( ) SI_UNIT ( $, .RADIAN. ) );
#219 =( LENGTH_UNIT ( ) NAMED_UNIT ( * ) SI_UNIT ( .MILLI., .METRE. ) );
#220 = DIRECTION ( 'NONE',  ( 0.0000000000000000000, 0.0000000000000000000, -1.000000000000000000 ) ) ;
#221 = TOROIDAL_SURFACE ( 'NONE', #167, 89.79999999999999700, 0.2000000000000096400 ) ;
#222 = CARTESIAN_POINT ( 'NONE',  ( 0.0000000000000000000, -12.00000000000000200, 87.50000000000000000 ) ) ;
#223 = STYLED_ITEM ( 'NONE', ( #4 ), #252 ) ;
#224 = FACE_BOUND ( 'NONE', #100, .T. ) ;
#225 = CIRCLE ( 'NONE', #263, 77.07500000000000300 ) ;
#226 = ORIENTED_EDGE ( 'NONE', *, *, #229, .T. ) ;
#227 = CARTESIAN_POINT ( 'NONE',  ( 0.0000000000000000000, 0.0000000000000000000, 77.07500000000000300 ) ) ;
#228 = CARTESIAN_POINT ( 'NONE',  ( 0.0000000000000000000, -9.983193277310919100, 81.15000000000000600 ) ) ;
#229 = EDGE_CURVE ( 'NONE', #208, #208, #16, .T. ) ;
#230 = CIRCLE ( 'NONE', #33, 77.07500000000000300 ) ;
#231 = FACE_OUTER_BOUND ( 'NONE', #239, .T. ) ;
#232 = EDGE_LOOP ( 'NONE', ( #204 ) ) ;
#233 = AXIS2_PLACEMENT_3D ( 'NONE', #137, #22, #54 ) ;
#234 = UNCERTAINTY_MEASURE_WITH_UNIT (LENGTH_MEASURE( 1.000000000000000100E-005 ), #219, 'distance_accuracy_value', 'NONE');
#235 = FACE_OUTER_BOUND ( 'NONE', #72, .T. ) ;
#236 = AXIS2_PLACEMENT_3D ( 'NONE', #178, #174, #147 ) ;
#237 = DIRECTION ( 'NONE',  ( 0.0000000000000000000, 0.0000000000000000000, 1.000000000000000000 ) ) ;
#238 = CIRCLE ( 'NONE', #246, 87.50000000000000000 ) ;
#239 = EDGE_LOOP ( 'NONE', ( #371 ) ) ;
#240 = DIRECTION ( 'NONE',  ( 0.0000000000000000000, 1.000000000000000000, 0.0000000000000000000 ) ) ;
#241 = CARTESIAN_POINT ( 'NONE',  ( 0.0000000000000000000, -12.00000000000000200, 0.0000000000000000000 ) ) ;
#242 = ADVANCED_FACE ( 'NONE', ( #70, #235 ), #152, .T. ) ;
#243 = CARTESIAN_POINT ( 'NONE',  ( 0.0000000000000000000, -9.983193277310919100, 0.0000000000000000000 ) ) ;
#244 = CIRCLE ( 'NONE', #360, 89.82352941176469600 ) ;
#245 = PLANE ( 'NONE',  #336 ) ;
#246 = AXIS2_PLACEMENT_3D ( 'NONE', #307, #280, #53 ) ;
#247 =( NAMED_UNIT ( * ) SI_UNIT ( $, .STERADIAN. ) SOLID_ANGLE_UNIT ( ) );
#248 = CARTESIAN_POINT ( 'NONE',  ( 0.0000000000000000000, -6.688194301613415300, 90.00000000000000000 ) ) ;
#249 = ORIENTED_EDGE ( 'NONE', *, *, #181, .F. ) ;
#250 = EDGE_LOOP ( 'NONE', ( #37 ) ) ;
#251 = CARTESIAN_POINT ( 'NONE',  ( 0.0000000000000000000, -4.500000000000000000, 75.90000000000000600 ) ) ;
#252 = MANIFOLD_SOLID_BREP ( 'C', #76 ) ;
#253 = AXIS2_PLACEMENT_3D ( 'NONE', #243, #185, #83 ) ;
#254 = CARTESIAN_POINT ( 'NONE',  ( 0.0000000000000000000, -12.00000000000000200, -77.07500000000000300 ) ) ;
#255 = DIRECTION ( 'NONE',  ( 0.0000000000000000000, 0.0000000000000000000, 1.000000000000000000 ) ) ;
#256 = EDGE_LOOP ( 'NONE', ( #260 ) ) ;
#257 = AXIS2_PLACEMENT_3D ( 'NONE', #56, #278, #109 ) ;
#258 = VERTEX_POINT ( 'NONE', #25 ) ;
#259 = ORIENTED_EDGE ( 'NONE', *, *, #195, .T. ) ;
#260 = ORIENTED_EDGE ( 'NONE', *, *, #49, .T. ) ;
#261 = CARTESIAN_POINT ( 'NONE',  ( 0.0000000000000000000, -9.983193277310920900, 0.0000000000000000000 ) ) ;
#262 = PRODUCT ( 'BS1ISOK160154 FULLVAC', 'BS1ISOK160154 FULLVAC', '', ( #30 ) ) ;
#263 = AXIS2_PLACEMENT_3D ( 'NONE', #356, #14, #211 ) ;
#264 = ADVANCED_FACE ( 'NONE', ( #304, #145 ), #369, .F. ) ;
#265 = EDGE_CURVE ( 'NONE', #113, #113, #293, .T. ) ;
#266 = ORIENTED_EDGE ( 'NONE', *, *, #97, .T. ) ;
#267 = EDGE_CURVE ( 'NONE', #131, #131, #351, .T. ) ;
#268 = CARTESIAN_POINT ( 'NONE',  ( 0.0000000000000000000, -11.99999999999999800, 0.0000000000000000000 ) ) ;
#269 = CARTESIAN_POINT ( 'NONE',  ( 77.07500000000000300, -7.860465750519907100E-016, 0.0000000000000000000 ) ) ;
#270 = SHAPE_DEFINITION_REPRESENTATION ( #48, #163 ) ;
#271 = EDGE_LOOP ( 'NONE', ( #205 ) ) ;
#272 = EDGE_LOOP ( 'NONE', ( #295 ) ) ;
#273 = DIRECTION ( 'NONE',  ( 0.0000000000000000000, 0.0000000000000000000, -1.000000000000000000 ) ) ;
#274 = DIRECTION ( 'NONE',  ( 0.0000000000000000000, 1.000000000000000000, 0.0000000000000000000 ) ) ;
#275 = CARTESIAN_POINT ( 'NONE',  ( 0.0000000000000000000, -9.983193277310920900, 87.50000000000000000 ) ) ;
#276 = AXIS2_PLACEMENT_3D ( 'NONE', #128, #323, #40 ) ;
#277 = TOROIDAL_SURFACE ( 'NONE', #108, 89.79999999999999700, 0.2000000000000096400 ) ;
#278 = DIRECTION ( 'NONE',  ( 0.0000000000000000000, -1.000000000000000000, 0.0000000000000000000 ) ) ;
#279 = FILL_AREA_STYLE_COLOUR ( '', #144 ) ;
#280 = DIRECTION ( 'NONE',  ( 0.0000000000000000000, 1.000000000000000000, 0.0000000000000000000 ) ) ;
#281 = ORIENTED_EDGE ( 'NONE', *, *, #49, .F. ) ;
#282 = AXIS2_PLACEMENT_3D ( 'NONE', #186, #168, #52 ) ;
#283 = AXIS2_PLACEMENT_3D ( 'NONE', #124, #325, #319 ) ;
#284 = VERTEX_POINT ( 'NONE', #286 ) ;
#285 = FACE_BOUND ( 'NONE', #6, .T. ) ;
#286 = CARTESIAN_POINT ( 'NONE',  ( 0.0000000000000000000, -1.734723475976807100E-015, 90.00000000000000000 ) ) ;
#287 = EDGE_CURVE ( 'NONE', #122, #122, #238, .T. ) ;
#288 = AXIS2_PLACEMENT_3D ( 'NONE', #268, #212, #44 ) ;
#289 = FACE_BOUND ( 'NONE', #116, .T. ) ;
#290 = ORIENTED_EDGE ( 'NONE', *, *, #181, .T. ) ;
#291 = DIRECTION ( 'NONE',  ( 0.0000000000000000000, 0.0000000000000000000, 1.000000000000000000 ) ) ;
#292 = ADVANCED_FACE ( 'NONE', ( #289, #213 ), #245, .T. ) ;
#293 = CIRCLE ( 'NONE', #233, 90.00000000000001400 ) ;
#294 = TOROIDAL_SURFACE ( 'NONE', #176, 90.00000000000000000, 1.500000000000001300 ) ;
#295 = ORIENTED_EDGE ( 'NONE', *, *, #324, .F. ) ;
#296 = AXIS2_PLACEMENT_3D ( 'NONE', #339, #338, #164 ) ;
#297 = UNCERTAINTY_MEASURE_WITH_UNIT (LENGTH_MEASURE( 1.000000000000000100E-005 ), #89, 'distance_accuracy_value', 'NONE');
#298 = DIRECTION ( 'NONE',  ( 0.0000000000000000000, -1.000000000000000000, -0.0000000000000000000 ) ) ;
#299 = VERTEX_POINT ( 'NONE', #227 ) ;
#300 = EDGE_LOOP ( 'NONE', ( #170 ) ) ;
#301 = CARTESIAN_POINT ( 'NONE',  ( 0.0000000000000000000, -5.000000000000001800, 0.0000000000000000000 ) ) ;
#302 = DIRECTION ( 'NONE',  ( -0.0000000000000000000, -1.000000000000000000, -0.0000000000000000000 ) ) ;
#303 = DIRECTION ( 'NONE',  ( 0.0000000000000000000, 0.0000000000000000000, 1.000000000000000000 ) ) ;
#304 = FACE_OUTER_BOUND ( 'NONE', #305, .T. ) ;
#305 = EDGE_LOOP ( 'NONE', ( #198 ) ) ;
#306 = ORIENTED_EDGE ( 'NONE', *, *, #197, .F. ) ;
#307 = CARTESIAN_POINT ( 'NONE',  ( 0.0000000000000000000, -12.00000000000000200, 0.0000000000000000000 ) ) ;
#308 = DIRECTION ( 'NONE',  ( 0.0000000000000000000, -1.000000000000000000, -0.0000000000000000000 ) ) ;
#309 = CYLINDRICAL_SURFACE ( 'NONE', #65, 75.90000000000000600 ) ;
#310 = CARTESIAN_POINT ( 'NONE',  ( 0.0000000000000000000, -6.489583207305954300, 89.82352941176469600 ) ) ;
#311 =( NAMED_UNIT ( * ) PLANE_ANGLE_UNIT ( ) SI_UNIT ( $, .RADIAN. ) );
#312 = CYLINDRICAL_SURFACE ( 'NONE', #87, 87.50000000000000000 ) ;
#313 = FILL_AREA_STYLE_COLOUR ( '', #103 ) ;
#314 = FILL_AREA_STYLE ('',( #313 ) ) ;
#315 = SURFACE_SIDE_STYLE ('',( #318 ) ) ;
#316 = FACE_OUTER_BOUND ( 'NONE', #271, .T. ) ;
#317 = PRODUCT_RELATED_PRODUCT_CATEGORY ( 'part', '', ( #262 ) ) ;
#318 = SURFACE_STYLE_FILL_AREA ( #314 ) ;
#319 = DIRECTION ( 'NONE',  ( 0.0000000000000000000, 0.0000000000000000000, 1.000000000000000000 ) ) ;
#320 = CYLINDRICAL_SURFACE ( 'NONE', #276, 81.15000000000000600 ) ;
#321 = EDGE_LOOP ( 'NONE', ( #290 ) ) ;
#322 = AXIS2_PLACEMENT_3D ( 'NONE', #261, #93, #291 ) ;
#323 = DIRECTION ( 'NONE',  ( 0.0000000000000000000, 1.000000000000000000, 0.0000000000000000000 ) ) ;
#324 = EDGE_CURVE ( 'NONE', #284, #284, #26, .T. ) ;
#325 = DIRECTION ( 'NONE',  ( 0.0000000000000000000, 1.000000000000000000, 0.0000000000000000000 ) ) ;
#326 = AXIS2_PLACEMENT_3D ( 'NONE', #354, #8, #11 ) ;
#327 = CARTESIAN_POINT ( 'NONE',  ( 0.0000000000000000000, -6.688194301613415300, 0.0000000000000000000 ) ) ;
#328 = DIRECTION ( 'NONE',  ( 0.0000000000000000000, 0.0000000000000000000, -1.000000000000000000 ) ) ;
#329 = CARTESIAN_POINT ( 'NONE',  ( 0.0000000000000000000, -4.500000000000000000, 0.0000000000000000000 ) ) ;
#330 = FACE_OUTER_BOUND ( 'NONE', #28, .T. ) ;
#331 = CIRCLE ( 'NONE', #283, 90.00000000000000000 ) ;
#332 = ADVANCED_FACE ( 'NONE', ( #330, #316 ), #221, .T. ) ;
#333 = DIRECTION ( 'NONE',  ( 0.0000000000000000000, -0.0000000000000000000, 1.000000000000000000 ) ) ;
#334 = DIRECTION ( 'NONE',  ( 0.0000000000000000000, 0.0000000000000000000, 1.000000000000000000 ) ) ;
#335 = CARTESIAN_POINT ( 'NONE',  ( 0.0000000000000000000, -12.00000000000000200, 0.0000000000000000000 ) ) ;
#336 = AXIS2_PLACEMENT_3D ( 'NONE', #190, #308, #220 ) ;
#337 = CIRCLE ( 'NONE', #121, 89.82352941176469600 ) ;
#338 = DIRECTION ( 'NONE',  ( 0.0000000000000000000, 1.000000000000000000, 0.0000000000000000000 ) ) ;
#339 = CARTESIAN_POINT ( 'NONE',  ( 0.0000000000000000000, -1.734723475976807100E-015, 0.0000000000000000000 ) ) ;
#340 = EDGE_CURVE ( 'NONE', #357, #357, #347, .T. ) ;
#341 = CIRCLE ( 'NONE', #322, 87.50000000000000000 ) ;
#342 = EDGE_LOOP ( 'NONE', ( #141 ) ) ;
#343 = AXIS2_PLACEMENT_3D ( 'NONE', #101, #274, #273 ) ;
#344 = CARTESIAN_POINT ( 'NONE',  ( 0.0000000000000000000, -3.510416792694058600, 89.82352941176469600 ) ) ;
#345 = FACE_OUTER_BOUND ( 'NONE', #105, .T. ) ;
#346 = AXIS2_PLACEMENT_3D ( 'NONE', #106, #302, #328 ) ;
#347 = CIRCLE ( 'NONE', #373, 90.00000000000000000 ) ;
#348 = ORIENTED_EDGE ( 'NONE', *, *, #267, .F. ) ;
#349 = EDGE_LOOP ( 'NONE', ( #3 ) ) ;
#350 = CARTESIAN_POINT ( 'NONE',  ( 0.0000000000000000000, -11.99999999999999800, 0.0000000000000000000 ) ) ;
#351 = CIRCLE ( 'NONE', #253, 81.15000000000000600 ) ;
#352 = PLANE ( 'NONE',  #326 ) ;
#353 = ORIENTED_EDGE ( 'NONE', *, *, #66, .F. ) ;
#354 = CARTESIAN_POINT ( 'NONE',  ( 76.28130781247499200, -6.600000000000000500, 0.0000000000000000000 ) ) ;
#355 = CARTESIAN_POINT ( 'NONE',  ( 0.0000000000000000000, -6.489583207305954300, 0.0000000000000000000 ) ) ;
#356 = CARTESIAN_POINT ( 'NONE',  ( 0.0000000000000000000, 0.0000000000000000000, 0.0000000000000000000 ) ) ;
#357 = VERTEX_POINT ( 'NONE', #117 ) ;
#358 = EDGE_LOOP ( 'NONE', ( #281 ) ) ;
#359 = DIRECTION ( 'NONE',  ( 0.0000000000000000000, 1.000000000000000000, 0.0000000000000000000 ) ) ;
#360 = AXIS2_PLACEMENT_3D ( 'NONE', #107, #160, #153 ) ;
#361 = EDGE_LOOP ( 'NONE', ( #249 ) ) ;
#362 = DIRECTION ( 'NONE',  ( 0.0000000000000000000, 0.0000000000000000000, 1.000000000000000000 ) ) ;
#363 = ADVANCED_FACE ( 'NONE', ( #13, #34 ), #309, .F. ) ;
#364 = SURFACE_SIDE_STYLE ('',( #67 ) ) ;
#365 = EDGE_CURVE ( 'NONE', #192, #192, #203, .T. ) ;
#366 = VERTEX_POINT ( 'NONE', #372 ) ;
#367 = CARTESIAN_POINT ( 'NONE',  ( 0.0000000000000000000, 0.0000000000000000000, 0.0000000000000000000 ) ) ;
#368 = ORIENTED_EDGE ( 'NONE', *, *, #66, .T. ) ;
#369 = CYLINDRICAL_SURFACE ( 'NONE', #282, 77.07500000000000300 ) ;
#370 = CYLINDRICAL_SURFACE ( 'NONE', #126, 77.07500000000000300 ) ;
#371 = ORIENTED_EDGE ( 'NONE', *, *, #340, .F. ) ;
#372 = CARTESIAN_POINT ( 'NONE',  ( 0.0000000000000000000, -6.599999999999994300, -77.07500000000000300 ) ) ;
#373 = AXIS2_PLACEMENT_3D ( 'NONE', #241, #82, #191 ) ;
#374 = APPLICATION_PROTOCOL_DEFINITION ( 'draft international standard', 'automotive_design', 1998, #171 ) ;
ENDSEC;
END-ISO-10303-21;
